.tavsiye et
 
E-Posta Akorlar Dersler Biyografiler İlanlar Paylaşım
 
 
 
 
 
 
 
 
 
 
 
 

 
 
 
 
 
 


Linkler
 »  Free Dating Sites
  Ana Sayfa » Akorlar » A » Anonim » İstiklal Marşı... Akor Ekle  

   İstiklal MarşıPopüler
 

                                                           Kork       
      C             Fm               C                                
                                                           |---3---|  
      Q.      S  S  Q.      S  S     E   E   E   E   Q     E   E   E  
E||---8-------8--8--8-------8--8-|---8---8---8---8---8----------------|
B||---8-------------9------------|---8---8---8---8---8----------------|
G||---9------------10------------|---9---9---9---9---9----------------|
D||--10------10-10-10------10-10-|--10--10--10--10--10----10---9--10--|
A||------------------------------|------------------------------------|
E||------------------------------|------------------------------------|


   ma    sön   mez  bu  şa    fak ...                        
   Fm                         Fm                             
                                      |--3--|       |--3--|  
   Q     Q     Q    E.  S     Q       E  E  E  Q    E  E  E  
---------------------------|---------------------------------|
---------8-----9--------8--|--6---------------------6--5--6--|
--10----------10----9------|--5------------------------------|
--10----10----10----8------|--6-------6--5--6--3-------------|
--11----10-----------------|---------------------------------|
---------------------------|----------4--3--4--1-------------|


  A#m   F     A#m    F        A#m                         
                                   |--3--|       |--3--|  
  Q     Q     E.  S  E.  S    Q    E  E  E  Q    E  E  E  
--6-----8-----9---8------8-|--6------------------8--7--8--|
--6----------11-----10-----|--6---------------------------|
--6----10----10-----10-----|--6----6--5--6----------------|
-------10-----------10-----|----------------8-------------|
---------------------------|------------------------------|
---------------------------|------------------------------|


  Em                        Fm                         
  Q     Q.     S S E.  S    E.  S E.  S E.   S  E.   S 
-----------------6-------|--------4---6-8----9-11---13-|
--8-----8------L---9-----|--6---8-6---8-9---11-13---14-|
--9-----9------L---9---9-|------5-------8------13------|
-------10------L---------|--6--------------------------|
-------------------------|-----------------------------|
-------------------------|-----------------------------|


   G#                G#    Gm/5-    G#                               
         |---3---|                        |---3--|         |---3--|  
   Q     E   E   E   Q     Q        Q     E  E   E   Q     E  E   E  
--11----------------------------|------------------------------------|
--13----------------13----11----|---9--------------------------------|
--13----------------13----12----|---8--------------------------------|
--------13--12--13--13----11----|--10----10--9--10--------10--9--10--|
--------------------------------|-------------------11---------------|
--------------------------------|------------------------------------|


   C                                                       
                    |--3--|                                
   Q     Q    E.  S E  E  E      Q     Q.     S  S  E.   S 
--------------8---6----------|--------13------L-11--9----8-|
---8----------------9--8--9--|--------10------L-13-11---10-|
--------------9--------------|--10-------------------------|
--10----10-------------------|--10-------------------------|
--10-------------------------|-----------------------------|
-----------------------------|-----------------------------|


                                   |--3--|        |---3--|  
   E.  S E.   S  Q    Q       Q    E  E  E  Q     E  E   E  
-----------------8---------|--------------------------------|
--11---9-8-----------------|--6-----------------------------|
--10---------10-10----5----|--5-----------------------------|
--11-----9------10----8----|--6----6--5--6-------10--9--10--|
---------------------------|----------------8---------------|
---------------------------|--------------------------------|


                                  |--3--|       |--3--|  
   Q     Q     Q    E.  S    Q    E  E  E  Q    E  E  E  
--------------------------|------------------------------|
---------8-----9--------8-|--6------------------6--5--6--|
--10----------10----9-----|--5---------------------------|
--10----10----10----8-----|--6----6--5--6--3-------------|
--11----10----------------|------------------------------|
--------------------------|-------4--3--4--1-------------|


                                   |--3--|       |--3--|  
  Q     Q     E.  S  E.  S    Q    E  E  E  Q    E  E  E  
--6-----8-----9---8------8-|--6------------------8--7--8--|
--6----------11-----10-----|--6---------------------------|
--6----10----10-----10-----|--6----6--5--6----------------|
-------10-----------10-----|----------------8-------------|
---------------------------|------------------------------|
---------------------------|------------------------------|


  Q     Q.     S S E.  S    E.  S E.  S E.   S  E.   S 
-----------------6-------|--------4---6-8----9-11---13-|
--8-----8------L---9-----|--6---8-6---8-9---11-13---14-|
--9-----9------L---9---9-|------5-------8------13------|
-------10------L---------|--6--------------------------|
-------------------------|-----------------------------|
-------------------------|-----------------------------|


         |---3---|                        |---3--|         |---3--|  
   Q     E   E   E   Q     Q        Q     E  E   E   Q     E  E   E  
--11----------------------------|------------------------------------|
--13----------------13----11----|---9--------------------------------|
--13----------------13----12----|---8--------------------------------|
--------13--12--13--13----11----|--10----10--9--10--------10--9--10--|
--------------------------------|-------------------11---------------|
--------------------------------|------------------------------------|


                    |--3--|                                
   Q     Q    E.  S E  E  E      Q     Q.     S  S  E.   S 
--------------8---6----------|--------13------L-11--9----8-|
---8----------------9--8--9--|--------10------L-13-11---10-|
--------------9--------------|--10-------------------------|
--10----10-------------------|--10-------------------------|
--10-------------------------|-----------------------------|
-----------------------------|-----------------------------|


                                   |--3--|            
   E.  S E.   S  Q    Q       Q    E  E  E  H         
-----------------8---------|-------------------------||
--11---9-8-----------------|--6----------------------||
--10---------10-10----5----|--5----------------------||
--11-----9------10----8----|--6----6--5--6-----------||
---------------------------|----------------8--------||
---------------------------|-------------------------||


İstiklâl Marşı

Korkma, sönmez bu şafaklarda yüzen al sancak;
Sönmeden yurdumun üstünde tüten en son ocak.
O benim milletimin yıldızıdır, parlayacak;
O benimdir, o benim milletimindir ancak.

Çatma, kurban olayım, çehreni ey nazlı hilal!
Kahraman ırkıma bir gül! Ne bu şiddet, bu celâl?
Sana olmaz dökülen kanlarımız sonra helâl...
Hakkıdır, Hakk'a tapan, milletimin istiklâl!

Ben ezelden beridir hür yaşadım, hür yaşarım.
Hangi çılgın bana zincir vuracakmış? Şaşarım!
Kükremiş sel gibiyim, bendimi çiğner, aşarım.
Yırtarım dağları, enginlere sığmam, taşarım.

Garbın âfakını sarmışsa çelik zırhlı duvar,
Benim iman dolu göğsüm gibi serhaddım var.
Ulusun, korkma! Nasıl böyle bir imanı boğar,
'Medeniyet!' dediğin tek dişi kalmış canavar?

Arkadaş! Yurduma alçakları uğratma, sakın.
Siper et gövdeni, dursun bu hayasızca akın.
Doğacaktır sana va'dettiği günler hakk'ın...
Kim bilir, belki yarın, belki yarından da yakın.

Bastığın yerleri 'toprak!' diyerek geçme, tanı:
Düşün altında binlerce kefensiz yatanı.
Sen şehit oğlusun, incitme, yazıktır, atanı:
Verme, dünyaları alsan da, bu cennet vatanı.

Kim bu cennet vatanın uğruna olmaz ki feda?
Şuhedâ fışkıracak toprağı sıksan, şuheda!
Cânı, cânânı, bütün varımı alsın da hüda,
Etmesin tek vatanımdan beni dünyada cüda.

Ruhumun senden, ilâhi, şudur ancak emeli:
Değmesin mâbedimin göğsüne namahrem eli.
Bu ezanlar-ki şahadetleri dinin temeli,
Ebedi yurdumun üstünde benim inlemeli.

O zaman vecd ile bin secde eder -varsa- taşım,
Her cerihamdan, ilâhi, boşanıp kanlı yaşım,
Fışkırır ruh-i mücerred gibi yerden nâ'şım;
O zaman yükselerek arşa değer belki başım.

Dalgalan sen de şafaklar gibi ey şanlı hilâl!
Olsun artık dökülen kanlarımın hepsi helâl.
Ebediyen sana yok, ırkıma yok izmihlâl:
Hakkıdır, hür yaşamış, bayrağımın hürriyet;
Hakkıdır, Hakk'a tapan, milletimin istiklâl!

Mehmet Akif Ersoy

 

Not. Tek gitara adapte etmeye çalıştım, Umarım yararlı
olabilmişimdir. Saygılarımla...

 

Duration Legend
---------------
W - whole
H - half
Q - quarter
E - 8th
S - 16th
T - 32nd
X - 64th
. - note dotted
|-n-|  - n-tuplets


Tablature Legend
----------------
L - tied note
x - dead note
g - grace note
(n) - ghost note
> - accentuded note
NH - natural harmonic
AH - artificial harmonic
TH - tapped harmonic
SH - semi harmonic
PH - pitch harmonic
h - hammer on
p - pull off
b - bend
br - bendRelease
pb - preBend
pbr - preBendRelease
brb - bendReleaseBend
\n/ - tremolo bar dip
\n - tremolo bar dive
-/n - tremolo bar Release up
/n\ - tremolo bar inverted dip
/n - tremolo bar return
-\n - tremolo bar Release down
S - shift slide
s - legato slide
/ -  slide into from below or out of upwards
\ -  slide into from above or out of downwards
~ - vibrato
W - wide vibrato
tr - trill
TP - tremolo picking
T - tapping
S - slap
P - pop
< - fade in
^ - brush up
v - brush down


 


Eklenme: 3/7/2006
Gönderen: berkgitarist

Bu tab sizden önce 13477 kişi tarafından okundu.
Yorum Yaz Oy Ver Yazdır





 
 
 Baska bir müzik aleti calmak isteseniz hangisi olurdu ?
Gitar
Keman
Piyano
Baglama
Flüt
Klarnet
Saksafon
Viyola/Viyolonsel
Davul
Kanun
Diger

Sonuçları göster
 
 
 
 
 
 
Hakkımızda | İletişim | Reklam | Tavsiye Edin
Evlilik Sitesi